ISO-10303-21;
HEADER;
FILE_DESCRIPTION(('CoCreate Modeling STEP Export'),'2;1');
FILE_NAME('CYMA_70.stp','2009-02-03T 8:44:32',(''),(''),
'CoCreate Modeling STEP processor for AP214 (Solid Model)',
'CoCreate Modeling 16.00A  16-Aug-2008 (C) Parametric Technology GmbH',
'');
FILE_SCHEMA(('AUTOMOTIVE_DESIGN { 1 0 10303 214 1 1 1 1 }'));
ENDSEC;
DATA;
#10=CARTESIAN_POINT('',(29.0068653946309,58.057183,-4.38245126753125));
#20=DIRECTION('',(0.,1.,1.11022302462516E-16));
#30=DIRECTION('',(-1.,0.,0.));
#40=AXIS2_PLACEMENT_3D('',#10,#20,#30);
#50=PLANE('',#40);
#60=CARTESIAN_POINT('',(35.922181456812,58.057183,-11.463720874298));
#70=DIRECTION('',(0.,1.,1.11022302462516E-16));
#80=DIRECTION('',(-1.,0.,0.));
#90=AXIS2_PLACEMENT_3D('',#60,#70,#80);
#100=CIRCLE('',#90,2.75);
#110=CARTESIAN_POINT('',(33.172181456812,58.057183,-11.463720874298));
#120=VERTEX_POINT('',#110);
#130=CARTESIAN_POINT('',(38.672181456812,58.057183,-11.463720874298));
#140=VERTEX_POINT('',#130);
#150=EDGE_CURVE('',#120,#140,#100,.T.);
#160=ORIENTED_EDGE('',*,*,#150,.T.);
#170=EDGE_CURVE('',#140,#120,#100,.T.);
#180=ORIENTED_EDGE('',*,*,#170,.T.);
#190=EDGE_LOOP('',(#180,#160));
#200=FACE_OUTER_BOUND('',#190,.T.);
#210=ADVANCED_FACE('',(#200),#50,.T.);
#220=CARTESIAN_POINT('',(35.922181456812,56.057183,-11.463720874298));
#230=DIRECTION('',(0.,1.,1.11022302462516E-16));
#240=DIRECTION('',(-1.,0.,0.));
#250=AXIS2_PLACEMENT_3D('',#220,#230,#240);
#260=TOROIDAL_SURFACE('',#250,2.75,2.);
#270=CARTESIAN_POINT('',(33.172181456812,56.057183,-11.463720874298));
#280=DIRECTION('',(0.,-1.11022302462516E-16,1.));
#290=DIRECTION('',(-1.,0.,0.));
#300=AXIS2_PLACEMENT_3D('',#270,#280,#290);
#310=CIRCLE('',#300,2.);
#320=CARTESIAN_POINT('',(31.172181456812,56.057183,-11.463720874298));
#330=VERTEX_POINT('',#320);
#340=EDGE_CURVE('',#120,#330,#310,.T.);
#350=ORIENTED_EDGE('',*,*,#340,.F.);
#360=CARTESIAN_POINT('',(35.922181456812,56.057183,-11.463720874298));
#370=DIRECTION('',(0.,1.,1.11022302462516E-16));
#380=DIRECTION('',(-1.,0.,0.));
#390=AXIS2_PLACEMENT_3D('',#360,#370,#380);
#400=CIRCLE('',#390,4.75);
#410=CARTESIAN_POINT('',(40.672181456812,56.057183,-11.463720874298));
#420=VERTEX_POINT('',#410);
#430=EDGE_CURVE('',#420,#330,#400,.T.);
#440=ORIENTED_EDGE('',*,*,#430,.T.);
#450=CARTESIAN_POINT('',(38.672181456812,56.057183,-11.463720874298));
#460=DIRECTION('',(0.,1.11022302462516E-16,-1.));
#470=DIRECTION('',(1.,0.,0.));
#480=AXIS2_PLACEMENT_3D('',#450,#460,#470);
#490=CIRCLE('',#480,2.);
#500=EDGE_CURVE('',#140,#420,#490,.T.);
#510=ORIENTED_EDGE('',*,*,#500,.T.);
#520=ORIENTED_EDGE('',*,*,#170,.F.);
#530=EDGE_LOOP('',(#520,#510,#440,#350));
#540=FACE_OUTER_BOUND('',#530,.T.);
#550=ADVANCED_FACE('',(#540),#260,.T.);
#560=EDGE_CURVE('',#330,#420,#400,.T.);
#570=ORIENTED_EDGE('',*,*,#560,.T.);
#580=ORIENTED_EDGE('',*,*,#340,.T.);
#590=ORIENTED_EDGE('',*,*,#150,.F.);
#600=ORIENTED_EDGE('',*,*,#500,.F.);
#610=EDGE_LOOP('',(#600,#590,#580,#570));
#620=FACE_OUTER_BOUND('',#610,.T.);
#630=ADVANCED_FACE('',(#620),#260,.T.);
#640=CARTESIAN_POINT('',(35.922181456812,57.057183,-11.463720874298));
#650=DIRECTION('',(0.,1.,1.11022302462516E-16));
#660=DIRECTION('',(-1.,0.,0.));
#670=AXIS2_PLACEMENT_3D('',#640,#650,#660);
#680=CYLINDRICAL_SURFACE('',#670,4.75);
#690=CARTESIAN_POINT('',(40.672181456812,57.057183,-11.463720874298));
#700=DIRECTION('',(0.,1.,1.11022302462516E-16));
#710=VECTOR('',#700,1.);
#720=LINE('',#690,#710);
#730=CARTESIAN_POINT('',(40.672181456812,37.557183,-11.463720874298));
#740=VERTEX_POINT('',#730);
#750=EDGE_CURVE('',#740,#420,#720,.T.);
#760=ORIENTED_EDGE('',*,*,#750,.F.);
#770=ORIENTED_EDGE('',*,*,#430,.F.);
#780=CARTESIAN_POINT('',(31.172181456812,57.057183,-11.463720874298));
#790=DIRECTION('',(0.,1.,1.11022302462516E-16));
#800=VECTOR('',#790,1.);
#810=LINE('',#780,#800);
#820=CARTESIAN_POINT('',(31.172181456812,37.557183,-11.463720874298));
#830=VERTEX_POINT('',#820);
#840=EDGE_CURVE('',#830,#330,#810,.T.);
#850=ORIENTED_EDGE('',*,*,#840,.T.);
#860=CARTESIAN_POINT('',(35.922181456812,37.557183,-11.463720874298));
#870=DIRECTION('',(0.,1.,1.11022302462516E-16));
#880=DIRECTION('',(-1.,0.,0.));
#890=AXIS2_PLACEMENT_3D('',#860,#870,#880);
#900=CIRCLE('',#890,4.75);
#910=EDGE_CURVE('',#740,#830,#900,.T.);
#920=ORIENTED_EDGE('',*,*,#910,.T.);
#930=EDGE_LOOP('',(#920,#850,#770,#760));
#940=FACE_OUTER_BOUND('',#930,.T.);
#950=ADVANCED_FACE('',(#940),#680,.T.);
#960=CARTESIAN_POINT('',(38.1041297533311,33.5571830000001,
-18.7411248347713));
#970=DIRECTION('',(-1.05192018418192E-30,-1.,3.59853742143842E-15));
#980=DIRECTION('',(1.,-1.70532717226612E-31,2.44929359829471E-16));
#990=AXIS2_PLACEMENT_3D('',#960,#970,#980);
#1000=PLANE('',#990);
#1010=CARTESIAN_POINT('',(35.922181456812,33.5571830000002,
-11.4637208742979));
#1020=DIRECTION('',(-6.34776976343801E-31,-1.,2.33969967409795E-15));
#1030=DIRECTION('',(3.01077430406824E-16,-2.33969967409795E-15,-1.));
#1040=AXIS2_PLACEMENT_3D('',#1010,#1020,#1030);
#1050=CIRCLE('',#1040,5.89999999999999);
#1060=CARTESIAN_POINT('',(41.822181456812,33.5571830000002,
-11.463720874298));
#1070=VERTEX_POINT('',#1060);
#1080=CARTESIAN_POINT('',(30.022181456812,33.5571830000002,
-11.463720874298));
#1090=VERTEX_POINT('',#1080);
#1100=EDGE_CURVE('',#1070,#1090,#1050,.T.);
#1110=ORIENTED_EDGE('',*,*,#1100,.T.);
#1120=CARTESIAN_POINT('',(35.922181456812,33.5571830000002,
-17.3637208742979));
#1130=VERTEX_POINT('',#1120);
#1140=EDGE_CURVE('',#1130,#1070,#1050,.T.);
#1150=ORIENTED_EDGE('',*,*,#1140,.T.);
#1160=EDGE_CURVE('',#1090,#1130,#1050,.T.);
#1170=ORIENTED_EDGE('',*,*,#1160,.T.);
#1180=EDGE_LOOP('',(#1170,#1150,#1110));
#1190=FACE_OUTER_BOUND('',#1180,.T.);
#1200=ADVANCED_FACE('',(#1190),#1000,.T.);
#1210=CARTESIAN_POINT('',(29.0068653946309,37.057183,-4.38245126753126))
;
#1220=DIRECTION('',(0.,1.,1.11022302462516E-16));
#1230=DIRECTION('',(-1.,0.,0.));
#1240=AXIS2_PLACEMENT_3D('',#1210,#1220,#1230);
#1250=PLANE('',#1240);
#1260=CARTESIAN_POINT('',(35.922181456812,37.057183,-11.463720874298));
#1270=DIRECTION('',(0.,1.,1.11022302462516E-16));
#1280=DIRECTION('',(-1.,0.,0.));
#1290=AXIS2_PLACEMENT_3D('',#1260,#1270,#1280);
#1300=CIRCLE('',#1290,10.);
#1310=CARTESIAN_POINT('',(25.922181456812,37.057183,-11.463720874298));
#1320=VERTEX_POINT('',#1310);
#1330=CARTESIAN_POINT('',(45.922181456812,37.057183,-11.463720874298));
#1340=VERTEX_POINT('',#1330);
#1350=EDGE_CURVE('',#1320,#1340,#1300,.T.);
#1360=ORIENTED_EDGE('',*,*,#1350,.T.);
#1370=EDGE_CURVE('',#1340,#1320,#1300,.T.);
#1380=ORIENTED_EDGE('',*,*,#1370,.T.);
#1390=EDGE_LOOP('',(#1380,#1360));
#1400=FACE_OUTER_BOUND('',#1390,.T.);
#1410=CARTESIAN_POINT('',(35.922181456812,37.057183,-11.463720874298));
#1420=DIRECTION('',(0.,1.,1.11022302462516E-16));
#1430=DIRECTION('',(1.,0.,0.));
#1440=AXIS2_PLACEMENT_3D('',#1410,#1420,#1430);
#1450=CIRCLE('',#1440,5.25);
#1460=CARTESIAN_POINT('',(30.672181456812,37.057183,-11.463720874298));
#1470=VERTEX_POINT('',#1460);
#1480=CARTESIAN_POINT('',(41.172181456812,37.057183,-11.463720874298));
#1490=VERTEX_POINT('',#1480);
#1500=EDGE_CURVE('',#1470,#1490,#1450,.T.);
#1510=ORIENTED_EDGE('',*,*,#1500,.F.);
#1520=EDGE_CURVE('',#1490,#1470,#1450,.T.);
#1530=ORIENTED_EDGE('',*,*,#1520,.F.);
#1540=EDGE_LOOP('',(#1530,#1510));
#1550=FACE_BOUND('',#1540,.T.);
#1560=ADVANCED_FACE('',(#1400,#1550),#1250,.T.);
#1570=CARTESIAN_POINT('',(35.922181456812,28.4387528604072,
-11.463720874298));
#1580=DIRECTION('',(0.,-1.,0.));
#1590=DIRECTION('',(-1.,0.,0.));
#1600=AXIS2_PLACEMENT_3D('',#1570,#1580,#1590);
#1610=CYLINDRICAL_SURFACE('',#1600,5.9);
#1620=CARTESIAN_POINT('',(41.822181456812,28.4387528604072,
-11.463720874298));
#1630=DIRECTION('',(0.,-1.,0.));
#1640=VECTOR('',#1630,1.);
#1650=LINE('',#1620,#1640);
#1660=CARTESIAN_POINT('',(41.822181456812,20.6552592113535,
-11.463720874298));
#1670=VERTEX_POINT('',#1660);
#1680=EDGE_CURVE('',#1070,#1670,#1650,.T.);
#1690=ORIENTED_EDGE('',*,*,#1680,.T.);
#1700=ORIENTED_EDGE('',*,*,#1100,.F.);
#1710=CARTESIAN_POINT('',(30.022181456812,28.4387528604072,
-11.463720874298));
#1720=DIRECTION('',(0.,-1.,0.));
#1730=VECTOR('',#1720,1.);
#1740=LINE('',#1710,#1730);
#1750=CARTESIAN_POINT('',(30.022181456812,20.6552592113535,
-11.463720874298));
#1760=VERTEX_POINT('',#1750);
#1770=EDGE_CURVE('',#1090,#1760,#1740,.T.);
#1780=ORIENTED_EDGE('',*,*,#1770,.F.);
#1790=CARTESIAN_POINT('',(35.922181456812,20.6552592113535,
-11.463720874298));
#1800=DIRECTION('',(0.,-1.,0.));
#1810=DIRECTION('',(-0.,0.,-1.));
#1820=AXIS2_PLACEMENT_3D('',#1790,#1800,#1810);
#1830=CIRCLE('',#1820,5.9);
#1840=EDGE_CURVE('',#1670,#1760,#1830,.T.);
#1850=ORIENTED_EDGE('',*,*,#1840,.T.);
#1860=EDGE_LOOP('',(#1850,#1780,#1700,#1690));
#1870=FACE_OUTER_BOUND('',#1860,.T.);
#1880=ADVANCED_FACE('',(#1870),#1610,.F.);
#1890=CARTESIAN_POINT('',(35.922181456812,40.057183,-11.463720874298));
#1900=DIRECTION('',(0.,1.,1.11022302462516E-16));
#1910=DIRECTION('',(-1.,0.,0.));
#1920=AXIS2_PLACEMENT_3D('',#1890,#1900,#1910);
#1930=CYLINDRICAL_SURFACE('',#1920,10.);
#1940=CARTESIAN_POINT('',(45.922181456812,40.057183,-11.463720874298));
#1950=DIRECTION('',(0.,1.,1.11022302462516E-16));
#1960=VECTOR('',#1950,1.);
#1970=LINE('',#1940,#1960);
#1980=CARTESIAN_POINT('',(45.922181456812,34.057183,-11.463720874298));
#1990=VERTEX_POINT('',#1980);
#2000=EDGE_CURVE('',#1990,#1340,#1970,.T.);
#2010=ORIENTED_EDGE('',*,*,#2000,.F.);
#2020=ORIENTED_EDGE('',*,*,#1370,.F.);
#2030=CARTESIAN_POINT('',(25.922181456812,40.057183,-11.463720874298));
#2040=DIRECTION('',(0.,1.,1.11022302462516E-16));
#2050=VECTOR('',#2040,1.);
#2060=LINE('',#2030,#2050);
#2070=CARTESIAN_POINT('',(25.922181456812,34.057183,-11.463720874298));
#2080=VERTEX_POINT('',#2070);
#2090=EDGE_CURVE('',#2080,#1320,#2060,.T.);
#2100=ORIENTED_EDGE('',*,*,#2090,.T.);
#2110=CARTESIAN_POINT('',(35.922181456812,34.057183,-11.463720874298));
#2120=DIRECTION('',(0.,1.,1.11022302462516E-16));
#2130=DIRECTION('',(-1.,0.,0.));
#2140=AXIS2_PLACEMENT_3D('',#2110,#2120,#2130);
#2150=CIRCLE('',#2140,10.);
#2160=EDGE_CURVE('',#1990,#2080,#2150,.T.);
#2170=ORIENTED_EDGE('',*,*,#2160,.T.);
#2180=EDGE_LOOP('',(#2170,#2100,#2020,#2010));
#2190=FACE_OUTER_BOUND('',#2180,.T.);
#2200=ADVANCED_FACE('',(#2190),#1930,.T.);
#2210=CARTESIAN_POINT('',(48.579575456812,18.0571830000002,
0.536281525702102));
#2220=DIRECTION('',(2.17633768505685E-31,1.,-1.08086192675748E-15));
#2230=DIRECTION('',(-2.44929359829471E-16,1.08086192675748E-15,1.));
#2240=AXIS2_PLACEMENT_3D('',#2210,#2220,#2230);
#2250=PLANE('',#2240);
#2260=CARTESIAN_POINT('',(35.922181456812,18.0571830000001,
-11.4637208742978));
#2270=DIRECTION('',(-1.05192018418192E-30,-1.,3.59853742143842E-15));
#2280=DIRECTION('',(1.,-1.70532717226612E-31,2.44929359829471E-16));
#2290=AXIS2_PLACEMENT_3D('',#2260,#2270,#2280);
#2300=CIRCLE('',#2290,8.);
#2310=CARTESIAN_POINT('',(43.922181456812,18.0571830000001,
-11.4637208742978));
#2320=VERTEX_POINT('',#2310);
#2330=CARTESIAN_POINT('',(27.922181456812,18.0571830000001,
-11.4637208742978));
#2340=VERTEX_POINT('',#2330);
#2350=EDGE_CURVE('',#2320,#2340,#2300,.T.);
#2360=ORIENTED_EDGE('',*,*,#2350,.T.);
#2370=EDGE_CURVE('',#2340,#2320,#2300,.T.);
#2380=ORIENTED_EDGE('',*,*,#2370,.T.);
#2390=EDGE_LOOP('',(#2380,#2360));
#2400=FACE_OUTER_BOUND('',#2390,.T.);
#2410=CARTESIAN_POINT('',(35.922181456812,18.0571830000001,
-11.463720874298));
#2420=DIRECTION('',(0.,-1.,0.));
#2430=DIRECTION('',(-0.,0.,-1.));
#2440=AXIS2_PLACEMENT_3D('',#2410,#2420,#2430);
#2450=CIRCLE('',#2440,7.4);
#2460=CARTESIAN_POINT('',(28.522181456812,18.0571830000001,
-11.463720874298));
#2470=VERTEX_POINT('',#2460);
#2480=CARTESIAN_POINT('',(43.322181456812,18.0571830000001,
-11.463720874298));
#2490=VERTEX_POINT('',#2480);
#2500=EDGE_CURVE('',#2470,#2490,#2450,.T.);
#2510=ORIENTED_EDGE('',*,*,#2500,.F.);
#2520=EDGE_CURVE('',#2490,#2470,#2450,.T.);
#2530=ORIENTED_EDGE('',*,*,#2520,.F.);
#2540=EDGE_LOOP('',(#2530,#2510));
#2550=FACE_BOUND('',#2540,.T.);
#2560=ADVANCED_FACE('',(#2400,#2550),#2250,.F.);
#2570=CARTESIAN_POINT('',(32.3424795289383,34.057183,-16.5856683461833))
;
#2580=DIRECTION('',(0.,1.,1.11022302462516E-16));
#2590=DIRECTION('',(-1.,0.,0.));
#2600=AXIS2_PLACEMENT_3D('',#2570,#2580,#2590);
#2610=PLANE('',#2600);
#2620=CARTESIAN_POINT('',(35.922181456812,34.057183,-11.4637208742979));
#2630=DIRECTION('',(0.,1.,1.11022302462516E-16));
#2640=DIRECTION('',(-1.,0.,0.));
#2650=AXIS2_PLACEMENT_3D('',#2620,#2630,#2640);
#2660=CIRCLE('',#2650,8.9);
#2670=CARTESIAN_POINT('',(27.022181456812,34.057183,-11.4637208742979));
#2680=VERTEX_POINT('',#2670);
#2690=CARTESIAN_POINT('',(44.822181456812,34.057183,-11.4637208742979));
#2700=VERTEX_POINT('',#2690);
#2710=EDGE_CURVE('',#2680,#2700,#2660,.T.);
#2720=ORIENTED_EDGE('',*,*,#2710,.T.);
#2730=EDGE_CURVE('',#2700,#2680,#2660,.T.);
#2740=ORIENTED_EDGE('',*,*,#2730,.T.);
#2750=EDGE_LOOP('',(#2740,#2720));
#2760=FACE_BOUND('',#2750,.T.);
#2770=EDGE_CURVE('',#2080,#1990,#2150,.T.);
#2780=ORIENTED_EDGE('',*,*,#2770,.F.);
#2790=ORIENTED_EDGE('',*,*,#2160,.F.);
#2800=EDGE_LOOP('',(#2790,#2780));
#2810=FACE_OUTER_BOUND('',#2800,.T.);
#2820=ADVANCED_FACE('',(#2760,#2810),#2610,.F.);
#2830=CARTESIAN_POINT('',(35.922181456812,34.057183,-11.4637208742979));
#2840=DIRECTION('',(0.,1.,1.11022302462516E-16));
#2850=DIRECTION('',(-1.,0.,0.));
#2860=AXIS2_PLACEMENT_3D('',#2830,#2840,#2850);
#2870=CYLINDRICAL_SURFACE('',#2860,7.9);
#2880=CARTESIAN_POINT('',(28.022181456812,34.057183,-11.4637208742979));
#2890=DIRECTION('',(0.,1.,1.11022302462516E-16));
#2900=VECTOR('',#2890,1.);
#2910=LINE('',#2880,#2900);
#2920=CARTESIAN_POINT('',(28.022181456812,20.5571830000001,
-11.4637208742979));
#2930=VERTEX_POINT('',#2920);
#2940=CARTESIAN_POINT('',(28.022181456812,33.057183,-11.4637208742979));
#2950=VERTEX_POINT('',#2940);
#2960=EDGE_CURVE('',#2930,#2950,#2910,.T.);
#2970=ORIENTED_EDGE('',*,*,#2960,.F.);
#2980=CARTESIAN_POINT('',(35.922181456812,33.057183,-11.4637208742979));
#2990=DIRECTION('',(0.,1.,1.11022302462516E-16));
#3000=DIRECTION('',(-1.,0.,0.));
#3010=AXIS2_PLACEMENT_3D('',#2980,#2990,#3000);
#3020=CIRCLE('',#3010,7.9);
#3030=CARTESIAN_POINT('',(43.822181456812,33.057183,-11.4637208742979));
#3040=VERTEX_POINT('',#3030);
#3050=EDGE_CURVE('',#2950,#3040,#3020,.T.);
#3060=ORIENTED_EDGE('',*,*,#3050,.F.);
#3070=CARTESIAN_POINT('',(43.822181456812,34.057183,-11.4637208742979));
#3080=DIRECTION('',(0.,1.,1.11022302462516E-16));
#3090=VECTOR('',#3080,1.);
#3100=LINE('',#3070,#3090);
#3110=CARTESIAN_POINT('',(43.822181456812,20.5571830000001,
-11.4637208742979));
#3120=VERTEX_POINT('',#3110);
#3130=EDGE_CURVE('',#3120,#3040,#3100,.T.);
#3140=ORIENTED_EDGE('',*,*,#3130,.T.);
#3150=CARTESIAN_POINT('',(35.922181456812,20.5571830000001,
-11.4637208742979));
#3160=DIRECTION('',(0.,1.,1.11022302462516E-16));
#3170=DIRECTION('',(-1.,0.,0.));
#3180=AXIS2_PLACEMENT_3D('',#3150,#3160,#3170);
#3190=CIRCLE('',#3180,7.9);
#3200=EDGE_CURVE('',#2930,#3120,#3190,.T.);
#3210=ORIENTED_EDGE('',*,*,#3200,.T.);
#3220=EDGE_LOOP('',(#3210,#3140,#3060,#2970));
#3230=FACE_OUTER_BOUND('',#3220,.T.);
#3240=ADVANCED_FACE('',(#3230),#2870,.T.);
#3250=CARTESIAN_POINT('',(35.922181456812,37.557183,-11.463720874298));
#3260=DIRECTION('',(0.,1.,1.11022302462516E-16));
#3270=DIRECTION('',(-1.,0.,0.));
#3280=AXIS2_PLACEMENT_3D('',#3250,#3260,#3270);
#3290=TOROIDAL_SURFACE('',#3280,5.25,0.5);
#3300=CARTESIAN_POINT('',(41.172181456812,37.557183,-11.463720874298));
#3310=DIRECTION('',(0.,1.11022302462516E-16,-1.));
#3320=DIRECTION('',(1.,0.,0.));
#3330=AXIS2_PLACEMENT_3D('',#3300,#3310,#3320);
#3340=CIRCLE('',#3330,0.5);
#3350=EDGE_CURVE('',#1490,#740,#3340,.T.);
#3360=ORIENTED_EDGE('',*,*,#3350,.F.);
#3370=ORIENTED_EDGE('',*,*,#910,.F.);
#3380=CARTESIAN_POINT('',(30.672181456812,37.557183,-11.463720874298));
#3390=DIRECTION('',(0.,-1.11022302462516E-16,1.));
#3400=DIRECTION('',(-1.,0.,0.));
#3410=AXIS2_PLACEMENT_3D('',#3380,#3390,#3400);
#3420=CIRCLE('',#3410,0.5);
#3430=EDGE_CURVE('',#1470,#830,#3420,.T.);
#3440=ORIENTED_EDGE('',*,*,#3430,.T.);
#3450=ORIENTED_EDGE('',*,*,#1520,.T.);
#3460=EDGE_LOOP('',(#3450,#3440,#3370,#3360));
#3470=FACE_OUTER_BOUND('',#3460,.T.);
#3480=ADVANCED_FACE('',(#3470),#3290,.F.);
#3490=CARTESIAN_POINT('',(35.922181456812,33.057183,-11.4637208742979));
#3500=DIRECTION('',(0.,1.,1.11022302462516E-16));
#3510=DIRECTION('',(-1.,0.,0.));
#3520=AXIS2_PLACEMENT_3D('',#3490,#3500,#3510);
#3530=TOROIDAL_SURFACE('',#3520,8.9,1.);
#3540=CARTESIAN_POINT('',(27.022181456812,33.057183,-11.4637208742979));
#3550=DIRECTION('',(0.,-1.11022302462516E-16,1.));
#3560=DIRECTION('',(-1.,0.,0.));
#3570=AXIS2_PLACEMENT_3D('',#3540,#3550,#3560);
#3580=CIRCLE('',#3570,1.);
#3590=EDGE_CURVE('',#2950,#2680,#3580,.T.);
#3600=ORIENTED_EDGE('',*,*,#3590,.T.);
#3610=EDGE_CURVE('',#3040,#2950,#3020,.T.);
#3620=ORIENTED_EDGE('',*,*,#3610,.T.);
#3630=CARTESIAN_POINT('',(44.822181456812,33.057183,-11.4637208742979));
#3640=DIRECTION('',(0.,1.11022302462516E-16,-1.));
#3650=DIRECTION('',(1.,0.,0.));
#3660=AXIS2_PLACEMENT_3D('',#3630,#3640,#3650);
#3670=CIRCLE('',#3660,1.);
#3680=EDGE_CURVE('',#3040,#2700,#3670,.T.);
#3690=ORIENTED_EDGE('',*,*,#3680,.F.);
#3700=ORIENTED_EDGE('',*,*,#2730,.F.);
#3710=EDGE_LOOP('',(#3700,#3690,#3620,#3600));
#3720=FACE_OUTER_BOUND('',#3710,.T.);
#3730=ADVANCED_FACE('',(#3720),#3530,.F.);
#3740=CARTESIAN_POINT('',(35.922181456812,20.5571830000001,
-11.4637208742978));
#3750=DIRECTION('',(-1.05192018418192E-30,-1.,3.59853742143842E-15));
#3760=DIRECTION('',(1.,-1.70532717226612E-31,2.44929359829471E-16));
#3770=AXIS2_PLACEMENT_3D('',#3740,#3750,#3760);
#3780=CYLINDRICAL_SURFACE('',#3770,8.);
#3790=CARTESIAN_POINT('',(43.922181456812,20.5571830000001,
-11.4637208742978));
#3800=DIRECTION('',(-1.05192018418192E-30,-1.,3.59853742143842E-15));
#3810=VECTOR('',#3800,1.);
#3820=LINE('',#3790,#3810);
#3830=CARTESIAN_POINT('',(43.922181456812,20.5571830000001,
-11.4637208742978));
#3840=VERTEX_POINT('',#3830);
#3850=EDGE_CURVE('',#3840,#2320,#3820,.T.);
#3860=ORIENTED_EDGE('',*,*,#3850,.T.);
#3870=CARTESIAN_POINT('',(35.922181456812,20.5571830000001,
-11.4637208742978));
#3880=DIRECTION('',(-1.05192018418192E-30,-1.,3.59853742143842E-15));
#3890=DIRECTION('',(1.,-1.70532717226612E-31,2.44929359829471E-16));
#3900=AXIS2_PLACEMENT_3D('',#3870,#3880,#3890);
#3910=CIRCLE('',#3900,8.);
#3920=CARTESIAN_POINT('',(27.922181456812,20.5571830000001,
-11.4637208742978));
#3930=VERTEX_POINT('',#3920);
#3940=EDGE_CURVE('',#3930,#3840,#3910,.T.);
#3950=ORIENTED_EDGE('',*,*,#3940,.T.);
#3960=CARTESIAN_POINT('',(27.922181456812,20.5571830000001,
-11.4637208742978));
#3970=DIRECTION('',(-1.05192018418192E-30,-1.,3.59853742143842E-15));
#3980=VECTOR('',#3970,1.);
#3990=LINE('',#3960,#3980);
#4000=EDGE_CURVE('',#3930,#2340,#3990,.T.);
#4010=ORIENTED_EDGE('',*,*,#4000,.F.);
#4020=ORIENTED_EDGE('',*,*,#2370,.F.);
#4030=EDGE_LOOP('',(#4020,#4010,#3950,#3860));
#4040=FACE_OUTER_BOUND('',#4030,.T.);
#4050=ADVANCED_FACE('',(#4040),#3780,.T.);
#4060=CARTESIAN_POINT('',(28.8222043153623,20.5571830000001,
-13.7318279773719));
#4070=DIRECTION('',(-1.05192018418192E-30,-1.,3.59853742143842E-15));
#4080=DIRECTION('',(1.,-1.70532717226612E-31,2.44929359829471E-16));
#4090=AXIS2_PLACEMENT_3D('',#4060,#4070,#4080);
#4100=PLANE('',#4090);
#4110=EDGE_CURVE('',#3840,#3930,#3910,.T.);
#4120=ORIENTED_EDGE('',*,*,#4110,.F.);
#4130=ORIENTED_EDGE('',*,*,#3940,.F.);
#4140=EDGE_LOOP('',(#4130,#4120));
#4150=FACE_OUTER_BOUND('',#4140,.T.);
#4160=EDGE_CURVE('',#3120,#2930,#3190,.T.);
#4170=ORIENTED_EDGE('',*,*,#4160,.F.);
#4180=ORIENTED_EDGE('',*,*,#3200,.F.);
#4190=EDGE_LOOP('',(#4180,#4170));
#4200=FACE_BOUND('',#4190,.T.);
#4210=ADVANCED_FACE('',(#4150,#4200),#4100,.F.);
#4220=CARTESIAN_POINT('',(35.922181456812,20.6552592113535,
-11.463720874298));
#4230=DIRECTION('',(0.,-1.,-1.738271354923E-16));
#4240=DIRECTION('',(1.,0.,0.));
#4250=AXIS2_PLACEMENT_3D('',#4220,#4230,#4240);
#4260=CONICAL_SURFACE('',#4250,5.9,0.523598775598299);
#4270=CARTESIAN_POINT('',(30.022181456812,20.6552592113535,
-11.463720874298));
#4280=DIRECTION('',(-0.5,-0.866025403784439,-1.50538715203411E-16));
#4290=VECTOR('',#4280,11.8);
#4300=LINE('',#4270,#4290);
#4310=EDGE_CURVE('',#1760,#2470,#4300,.T.);
#4320=ORIENTED_EDGE('',*,*,#4310,.F.);
#4330=ORIENTED_EDGE('',*,*,#2520,.T.);
#4340=CARTESIAN_POINT('',(41.822181456812,20.6552592113535,
-11.463720874298));
#4350=DIRECTION('',(0.5,-0.866025403784439,-1.50538715203411E-16));
#4360=VECTOR('',#4350,11.8);
#4370=LINE('',#4340,#4360);
#4380=EDGE_CURVE('',#1670,#2490,#4370,.T.);
#4390=ORIENTED_EDGE('',*,*,#4380,.T.);
#4400=ORIENTED_EDGE('',*,*,#1840,.F.);
#4410=EDGE_LOOP('',(#4400,#4390,#4330,#4320));
#4420=FACE_OUTER_BOUND('',#4410,.T.);
#4430=ADVANCED_FACE('',(#4420),#4260,.F.);
#4440=ORIENTED_EDGE('',*,*,#2500,.T.);
#4450=ORIENTED_EDGE('',*,*,#4310,.T.);
#4460=EDGE_CURVE('',#1760,#1670,#1830,.T.);
#4470=ORIENTED_EDGE('',*,*,#4460,.F.);
#4480=ORIENTED_EDGE('',*,*,#4380,.F.);
#4490=EDGE_LOOP('',(#4480,#4470,#4450,#4440));
#4500=FACE_OUTER_BOUND('',#4490,.T.);
#4510=ADVANCED_FACE('',(#4500),#4260,.F.);
#4520=ORIENTED_EDGE('',*,*,#1140,.F.);
#4530=ORIENTED_EDGE('',*,*,#1680,.F.);
#4540=ORIENTED_EDGE('',*,*,#4460,.T.);
#4550=ORIENTED_EDGE('',*,*,#1770,.T.);
#4560=ORIENTED_EDGE('',*,*,#1160,.F.);
#4570=EDGE_LOOP('',(#4560,#4550,#4540,#4530,#4520));
#4580=FACE_OUTER_BOUND('',#4570,.T.);
#4590=ADVANCED_FACE('',(#4580),#1610,.F.);
#4600=ORIENTED_EDGE('',*,*,#2960,.T.);
#4610=ORIENTED_EDGE('',*,*,#4160,.T.);
#4620=ORIENTED_EDGE('',*,*,#3130,.F.);
#4630=ORIENTED_EDGE('',*,*,#3610,.F.);
#4640=EDGE_LOOP('',(#4630,#4620,#4610,#4600));
#4650=FACE_OUTER_BOUND('',#4640,.T.);
#4660=ADVANCED_FACE('',(#4650),#2870,.T.);
#4670=EDGE_CURVE('',#830,#740,#900,.T.);
#4680=ORIENTED_EDGE('',*,*,#4670,.T.);
#4690=ORIENTED_EDGE('',*,*,#840,.F.);
#4700=ORIENTED_EDGE('',*,*,#560,.F.);
#4710=ORIENTED_EDGE('',*,*,#750,.T.);
#4720=EDGE_LOOP('',(#4710,#4700,#4690,#4680));
#4730=FACE_OUTER_BOUND('',#4720,.T.);
#4740=ADVANCED_FACE('',(#4730),#680,.T.);
#4750=ORIENTED_EDGE('',*,*,#2770,.T.);
#4760=ORIENTED_EDGE('',*,*,#2090,.F.);
#4770=ORIENTED_EDGE('',*,*,#1350,.F.);
#4780=ORIENTED_EDGE('',*,*,#2000,.T.);
#4790=EDGE_LOOP('',(#4780,#4770,#4760,#4750));
#4800=FACE_OUTER_BOUND('',#4790,.T.);
#4810=ADVANCED_FACE('',(#4800),#1930,.T.);
#4820=ORIENTED_EDGE('',*,*,#2350,.F.);
#4830=ORIENTED_EDGE('',*,*,#4000,.T.);
#4840=ORIENTED_EDGE('',*,*,#4110,.T.);
#4850=ORIENTED_EDGE('',*,*,#3850,.F.);
#4860=EDGE_LOOP('',(#4850,#4840,#4830,#4820));
#4870=FACE_OUTER_BOUND('',#4860,.T.);
#4880=ADVANCED_FACE('',(#4870),#3780,.T.);
#4890=ORIENTED_EDGE('',*,*,#3050,.T.);
#4900=ORIENTED_EDGE('',*,*,#3590,.F.);
#4910=ORIENTED_EDGE('',*,*,#2710,.F.);
#4920=ORIENTED_EDGE('',*,*,#3680,.T.);
#4930=EDGE_LOOP('',(#4920,#4910,#4900,#4890));
#4940=FACE_OUTER_BOUND('',#4930,.T.);
#4950=ADVANCED_FACE('',(#4940),#3530,.F.);
#4960=ORIENTED_EDGE('',*,*,#1500,.T.);
#4970=ORIENTED_EDGE('',*,*,#3430,.F.);
#4980=ORIENTED_EDGE('',*,*,#4670,.F.);
#4990=ORIENTED_EDGE('',*,*,#3350,.T.);
#5000=EDGE_LOOP('',(#4990,#4980,#4970,#4960));
#5010=FACE_OUTER_BOUND('',#5000,.T.);
#5020=ADVANCED_FACE('',(#5010),#3290,.F.);
#5030=CLOSED_SHELL('',(#950,#1200,#1560,#1880,#2200,#2560,#2820,#3240,
#3480,#3730,#4050,#4210,#4430,#4510,#4590,#4660,#4740,#4810,#4880,#4950,
#5020,#210,#550,#630));
#5040=MANIFOLD_SOLID_BREP('',#5030);
#5050=CARTESIAN_POINT('',(0.,0.,0.));
#5060=DIRECTION('',(0.,0.,1.));
#5070=DIRECTION('',(1.,0.,0.));
#5080=AXIS2_PLACEMENT_3D('',#5050,#5060,#5070);
#5090=APPLICATION_CONTEXT(' ');
#5100=APPLICATION_PROTOCOL_DEFINITION(' ','automotive_design',1998,#5090
);
#5110=PRODUCT_CONTEXT('',#5090,'mechanical');
#5120=PRODUCT_DEFINITION_CONTEXT('part definition',#5090,'design');
#5130=PRODUCT('CYMA_70','CYMA_70','',(#5110));
#5140=PRODUCT_RELATED_PRODUCT_CATEGORY('part',' ',(#5130));
#5150=PRODUCT_DEFINITION_FORMATION_WITH_SPECIFIED_SOURCE('','',#5130,
.BOUGHT.);
#5160=PRODUCT_DEFINITION('',' ',#5150,#5120);
#5170=PRODUCT_DEFINITION_SHAPE('','',#5160);
#5180=DIMENSIONAL_EXPONENTS(1.,0.,0.,0.,0.,0.,0.);
#5190=DIMENSIONAL_EXPONENTS(0.,0.,0.,0.,0.,0.,0.);
#5200=DIMENSIONAL_EXPONENTS(0.,0.,0.,0.,0.,0.,0.);
#5210=(LENGTH_UNIT() NAMED_UNIT(*) SI_UNIT(.MILLI.,.METRE.));
#5220=(NAMED_UNIT(*) PLANE_ANGLE_UNIT() SI_UNIT($,.RADIAN.));
#5230=(NAMED_UNIT(*) SI_UNIT($,.STERADIAN.) SOLID_ANGLE_UNIT());
#5240=(GEOMETRIC_REPRESENTATION_CONTEXT(3) 
GLOBAL_UNCERTAINTY_ASSIGNED_CONTEXT((#5250)) 
GLOBAL_UNIT_ASSIGNED_CONTEXT((#5210,#5220,#5230)) REPRESENTATION_CONTEXT
('',''));
#5250=UNCERTAINTY_MEASURE_WITH_UNIT(LENGTH_MEASURE(1.E-6),#5210,
'distance_accuracy_value','maximum gap value');
#5260=ADVANCED_BREP_SHAPE_REPRESENTATION('',(#5080,#5040),#5240);
#5270=SHAPE_DEFINITION_REPRESENTATION(#5170,#5260);
#5280=COLOUR_RGB('',0.600000023841858,0.600000023841858,
0.600000023841858);
#5290=FILL_AREA_STYLE_COLOUR('',#5280);
#5300=FILL_AREA_STYLE('',(#5290));
#5310=SURFACE_STYLE_FILL_AREA(#5300);
#5320=SURFACE_SIDE_STYLE('',(#5310));
#5330=SURFACE_STYLE_USAGE(.BOTH.,#5320);
#5340=PRESENTATION_STYLE_ASSIGNMENT((#5330));
#5350=STYLED_ITEM('',(#5340),#5040);
#5360=DRAUGHTING_MODEL('',(#5350),#5240);
#5370=CARTESIAN_POINT('',(95.219004456812,78.4182358742978,-68.657183));
#5380=DIRECTION('',(-2.44929359829471E-16,1.,-2.40665319221843E-15));
#5390=DIRECTION('',(-1.,-2.44929359829471E-16,5.42358974422539E-31));
#5400=AXIS2_PLACEMENT_3D('',#5370,#5380,#5390);
#5410=ITEM_DEFINED_TRANSFORMATION('CYMA_70','',#5080,#5400);
#5420=APPLICATION_CONTEXT(' ');
#5430=APPLICATION_PROTOCOL_DEFINITION(' ','automotive_design',1998,#5420
);
#5440=PRODUCT_CONTEXT('',#5420,'mechanical');
#5450=PRODUCT_DEFINITION_CONTEXT('part definition',#5420,'design');
#5460=PRODUCT('CYMA_70','CYMA_70','',(#5440));
#5470=PRODUCT_RELATED_PRODUCT_CATEGORY('part',' ',(#5460));
#5480=PRODUCT_DEFINITION_FORMATION_WITH_SPECIFIED_SOURCE('','',#5460,
.BOUGHT.);
#5490=PRODUCT_DEFINITION('',' ',#5480,#5450);
#5500=PRODUCT_DEFINITION_SHAPE('','',#5490);
#5510=DIMENSIONAL_EXPONENTS(1.,0.,0.,0.,0.,0.,0.);
#5520=DIMENSIONAL_EXPONENTS(0.,0.,0.,0.,0.,0.,0.);
#5530=DIMENSIONAL_EXPONENTS(0.,0.,0.,0.,0.,0.,0.);
#5540=(LENGTH_UNIT() NAMED_UNIT(*) SI_UNIT(.MILLI.,.METRE.));
#5550=(NAMED_UNIT(*) PLANE_ANGLE_UNIT() SI_UNIT($,.RADIAN.));
#5560=(NAMED_UNIT(*) SI_UNIT($,.STERADIAN.) SOLID_ANGLE_UNIT());
#5570=(GEOMETRIC_REPRESENTATION_CONTEXT(3) 
GLOBAL_UNCERTAINTY_ASSIGNED_CONTEXT((#5580)) 
GLOBAL_UNIT_ASSIGNED_CONTEXT((#5540,#5550,#5560)) REPRESENTATION_CONTEXT
('',''));
#5580=UNCERTAINTY_MEASURE_WITH_UNIT(LENGTH_MEASURE(1.E-6),#5540,
'distance_accuracy_value','maximum gap value');
#5590=SHAPE_REPRESENTATION('',(#5080,#5400),#5570);
#5600=SHAPE_DEFINITION_REPRESENTATION(#5500,#5590);
#5610=(REPRESENTATION_RELATIONSHIP('','',#5260,#5590) 
REPRESENTATION_RELATIONSHIP_WITH_TRANSFORMATION(#5410) 
SHAPE_REPRESENTATION_RELATIONSHIP());
#5620=NEXT_ASSEMBLY_USAGE_OCCURRENCE('1','','CYMA_70',#5490,#5160,'');
#5630=PRODUCT_DEFINITION_SHAPE('','',#5620);
#5640=CONTEXT_DEPENDENT_SHAPE_REPRESENTATION(#5610,#5630);
ENDSEC;
END-ISO-10303-21;
